999
dxflib 2.2.0.0
  0
SECTION
  2
HEADER
  9
$ACADVER
  1
AC1015
  9
$HANDSEED
  5
FFFF
  9
$DIMLIM
 70
0
  9
$DIMLUNIT
 70
2
  9
$DIMTIX
 70
0
  9
$AUNITS
 70
0
  9
$QTEXTMODE
 70
0
  9
$USERR1
 40
0.0
  9
$DIMALTU
 70
2
  9
$USERR2
 40
0.0
  9
$UCSORGBOTTOM
 10
0.0
 20
0.0
 30
0.0
  9
$USERR3
 40
0.0
  9
$USERR4
 40
0.0
  9
$USERR5
 40
0.0
  9
$LIMMAX
 10
420.0
 20
297.0
  9
$PELEVATION
 40
0.0
  9
$DIMALTZ
 70
0
  9
$DIMADEC
 70
2
  9
$JOINSTYLE
280
0
  9
$TILEMODE
 70
1
  9
$DIMATFIT
 70
3
  9
$PEXTMIN
 10
100000000000000000000.0
 20
100000000000000000000.0
 30
100000000000000000000.0
  9
$TDUSRTIMER
 40
0.0000000116
  9
$DWGCODEPAGE
  3
ANSI_1252
  9
$UCSORTHOVIEW
 70
0
  9
$DIMSOXD
 70
0
  9
$DIMTZIN
 70
0
  9
$SPLINETYPE
 70
6
  9
$DIMLFAC
 40
1.0
  9
$DIMSE1
 70
0
  9
$FILLETRAD
 40
10.0
  9
$DIMSE2
 70
0
  9
$PSTYLEMODE
290
1
  9
$DIMTSZ
 40
0.0
  9
$TEXTSTYLE
  7
Standard
  9
$PUCSXDIR
 10
1.0
 20
0.0
 30
0.0
  9
$DIMTXSTY
  7
Standard
  9
$PLIMMAX
 10
420.0
 20
297.0
  9
$DIMTM
 40
0.0
  9
$UCSORG
 10
0.0
 20
0.0
 30
0.0
  9
$DIMTP
 40
0.0
  9
$PSLTSCALE
 70
1
  9
$EXTNAMES
290
1
  9
$ANGBASE
 50
0.0
  9
$PUCSYDIR
 10
0.0
 20
1.0
 30
0.0
  9
$DIMASZ
 40
3.302
  9
$PUCSORTHOVIEW
 70
0
  9
$UNITMODE
 70
0
  9
$MEASUREMENT
 70
1
  9
$INSBASE
 10
0.0
 20
0.0
 30
0.0
  9
$EXTMAX
 10
505.4760090745999719
 20
-7927.9310941233998165
 30
0.0
  9
$ELEVATION
 40
0.0
  9
$TDCREATE
 40
2455606.6318806828930974
  9
$DIMDEC
 70
5
  9
$CELTYPE
  6
ByLayer
  9
$MENU
  1
.
  9
$ANGDIR
 70
0
  9
$DIMALTTD
 70
3
  9
$TREEDEPTH
 70
3020
  9
$PROXYGRAPHICS
 70
1
  9
$LTSCALE
 40
1.0
  9
$DIMAZIN
 70
0
  9
$DIMTOLJ
 70
0
  9
$TDUPDATE
 40
2455606.6318806950002909
  9
$DIMTMOVE
 70
0
  9
$DIMCEN
 40
2.5
  9
$DIMTVP
 40
0.0
  9
$TRACEWID
 40
1.0
  9
$CMLSTYLE
  2
Standard
  9
$DISPSILH
 70
0
  9
$DIMSTYLE
  2
ISO-25
  9
$SKETCHINC
 40
1.0
  9
$FILLMODE
 70
1
  9
$PLINEGEN
 70
0
  9
$DIMLWD
 70
-2
  9
$THICKNESS
 40
0.0
  9
$PUCSORG
 10
0.0
 20
0.0
 30
0.0
  9
$DIMLWE
 70
-2
  9
$CELTSCALE
 40
1.0
  9
$DIMALTTZ
 70
0
  9
$INSUNITS
 70
4
  9
$UCSORGBACK
 10
0.0
 20
0.0
 30
0.0
  9
$PLINEWID
 40
0.0
  9
$PEXTMAX
 10
-100000000000000000000.0
 20
-100000000000000000000.0
 30
-100000000000000000000.0
  9
$DIMJUST
 70
0
  9
$UCSYDIR
 10
0.0
 20
1.0
 30
0.0
  9
$PUCSORGBACK
 10
0.0
 20
0.0
 30
0.0
  9
$PUCSORGBOTTOM
 10
0.0
 20
0.0
 30
0.0
  9
$PDSIZE
 40
-1.0
  9
$DIMUPT
 70
0
  9
$DIMTAD
 70
1
  9
$UCSXDIR
 10
1.0
 20
0.0
 30
0.0
  9
$MAXACTVP
 70
64
  9
$DIMSAH
 70
0
  9
$TDUCREATE
 40
2455606.6318806828930974
  9
$USERI1
 70
0
  9
$DIMFRAC
 70
0
  9
$USERI2
 70
0
  9
$CELWEIGHT
370
-1
  9
$USERI3
 70
0
  9
$UCSORGRIGHT
 10
0.0
 20
0.0
 30
0.0
  9
$LWDISPLAY
290
1
  9
$SKPOLY
 70
0
  9
$USERI4
 70
0
  9
$USERI5
 70
0
  9
$UCSORGTOP
 10
0.0
 20
0.0
 30
0.0
  9
$LIMMIN
 10
0.0
 20
0.0
  9
$ACADMAINTVER
 70
6
  9
$TDUUPDATE
 40
2455606.6318806950002909
  9
$MIRRTEXT
 70
1
  9
$TEXTSIZE
 40
3.5
  9
$DIMGAP
 40
1.524
  9
$LUPREC
 70
5
  9
$CECOLOR
 62
256
  9
$DIMSD1
 70
0
  9
$DIMSD2
 70
0
  9
$WORLDVIEW
 70
1
  9
$PUCSORGRIGHT
 10
0.0
 20
0.0
 30
0.0
  9
$PLIMCHECK
 70
0
  9
$DIMTFAC
 40
1.0
  9
$CMLJUST
 70
0
  9
$USRTIMER
 70
1
  9
$SURFU
 70
6
  9
$SURFV
 70
6
  9
$DIMASO
 70
1
  9
$DIMDLE
 40
0.0
  9
$EXTMIN
 10
451.0410593209999774
 20
-7991.5832055982000384
 30
0.0
  9
$UCSORGLEFT
 10
0.0
 20
0.0
 30
0.0
  9
$OLESTARTUP
290
0
  9
$PUCSORGFRONT
 10
0.0
 20
0.0
 30
0.0
  9
$LUNITS
 70
2
  9
$DIMDLI
 40
3.75
  9
$SHADEDIF
 70
70
  9
$DIMCLRD
 70
0
  9
$DIMCLRE
 70
0
  9
$SPLINESEGS
 70
8
  9
$PUCSORGLEFT
 10
0.0
 20
0.0
 30
0.0
  9
$DIMALTRND
 40
0.0
  9
$DIMRND
 40
0.0
  9
$DIMALT
 70
0
  9
$FINGERPRINTGUID
  2
{5F0AD5DE-7C87-47B4-9AF1-392BE6EC70DF}
  9
$DIMCLRT
 70
0
  9
$PUCSORGTOP
 10
0.0
 20
0.0
 30
0.0
  9
$DIMTOH
 70
1
  9
$UCSORGFRONT
 10
0.0
 20
0.0
 30
0.0
  9
$VISRETAIN
 70
1
  9
$SHADEDGE
 70
3
  9
$DIMTOL
 70
0
  9
$SURFTYPE
 70
6
  9
$VERSIONGUID
  2
{FAEB1C32-E019-11D5-929B-00C0DF256EC4}
  9
$CHAMFERA
 40
10.0
  9
$SURFTAB1
 70
6
  9
$CHAMFERB
 40
10.0
  9
$SURFTAB2
 70
6
  9
$CHAMFERC
 40
20.0
  9
$AUPREC
 70
2
  9
$CHAMFERD
 40
0.0
  9
$DIMTDEC
 70
5
  9
$PDMODE
 70
0
  9
$SPLFRAME
 70
0
  9
$PLIMMIN
 10
0.0
 20
0.0
  9
$XEDIT
290
1
  9
$DIMDSEP
 70
44
  9
$LIMCHECK
 70
0
  9
$PINSBASE
 10
0.0
 20
0.0
 30
0.0
  9
$ORTHOMODE
 70
0
  9
$PSVPSCALE
 40
0.0
  9
$CLAYER
  8
0
  9
$DIMSHO
 70
1
  9
$DIMTOFL
 70
1
  9
$DIMTXT
 40
3.5
  9
$DIMEXE
 40
1.0
  9
$TDINDWG
 40
0.0000000116
  9
$REGENMODE
 70
1
  9
$ATTMODE
 70
1
  9
$CMLSCALE
 40
20.0
  9
$DIMZIN
 70
0
  9
$DIMTIH
 70
1
  9
$CEPSNTYPE
380
0
  9
$DIMSCALE
 40
1.0
  9
$DIMALTD
 70
3
  9
$DIMAUNIT
 70
0
  9
$DIMEXO
 40
1.0
  9
$DIMALTF
 40
0.0393700787
  9
$ENDCAPS
280
0
  0
ENDSEC
  0
SECTION
  2
TABLES
  0
TABLE
  2
VPORT
  5
8
100
AcDbSymbolTable
 70
1
  0
VPORT
  5
30
100
AcDbSymbolTableRecord
100
AcDbViewportTableRecord
  2
*Active
 70
0
 10
0.0
 20
0.0
 11
1.0
 21
1.0
 12
286.3055555555554861
 22
148.5
 13
0.0
 23
0.0
 14
10.0
 24
10.0
 15
10.0
 25
10.0
 16
0.0
 26
0.0
 36
1.0
 17
0.0
 27
0.0
 37
0.0
 40
297.0
 41
1.92798353909465
 42
50.0
 43
0.0
 44
0.0
 50
0.0
 51
0.0
 71
0
 72
100
 73
1
 74
3
 75
1
 76
1
 77
0
 78
0
281
0
 65
1
110
0.0
120
0.0
130
0.0
111
1.0
121
0.0
131
0.0
112
0.0
122
1.0
132
0.0
 79
0
146
0.0
  0
ENDTAB
  0
TABLE
  2
LTYPE
  5
5
100
AcDbSymbolTable
 70
21
  0
LTYPE
  5
14
100
AcDbSymbolTableRecord
100
AcDbLinetypeTableRecord
  2
ByBlock
 70
0
  3

 72
65
 73
0
 40
0.0
  0
LTYPE
  5
15
100
AcDbSymbolTableRecord
100
AcDbLinetypeTableRecord
  2
ByLayer
 70
0
  3

 72
65
 73
0
 40
0.0
  0
LTYPE
  5
16
100
AcDbSymbolTableRecord
100
AcDbLinetypeTableRecord
  2
CONTINUOUS
 70
0
  3
Solid line
 72
65
 73
0
 40
0.0
  0
LTYPE
  5
31
100
AcDbSymbolTableRecord
100
AcDbLinetypeTableRecord
  2
DOT
 70
0
  3
Dot . . . . . . . . . . . . . . . . . . . . . .
 72
65
 73
2
 40
6.3499999999999996
 49
0.0
 74
0
 49
-6.3499999999999996
 74
0
  0
LTYPE
  5
32
100
AcDbSymbolTableRecord
100
AcDbLinetypeTableRecord
  2
DOT2
 70
0
  3
Dot (.5x) .....................................
 72
65
 73
2
 40
3.1749999999999998
 49
0.0
 74
0
 49
-3.1749999999999998
 74
0
  0
LTYPE
  5
33
100
AcDbSymbolTableRecord
100
AcDbLinetypeTableRecord
  2
DOTX2
 70
0
  3
Dot (2x) .  .  .  .  .  .  .  .  .  .  .  .  .
 72
65
 73
2
 40
12.6999999999999993
 49
0.0
 74
0
 49
-12.6999999999999993
 74
0
  0
LTYPE
  5
34
100
AcDbSymbolTableRecord
100
AcDbLinetypeTableRecord
  2
DASHED
 70
0
  3
Dashed __ __ __ __ __ __ __ __ __ __ __ __ __ _
 72
65
 73
2
 40
19.0500000000000007
 49
12.6999999999999993
 74
0
 49
-6.3499999999999996
 74
0
  0
LTYPE
  5
35
100
AcDbSymbolTableRecord
100
AcDbLinetypeTableRecord
  2
DASHED2
 70
0
  3
Dashed (.5x) _ _ _ _ _ _ _ _ _ _ _ _ _ _ _ _ _
 72
65
 73
2
 40
9.5250000000000004
 49
6.3499999999999996
 74
0
 49
-3.1749999999999998
 74
0
  0
LTYPE
  5
36
100
AcDbSymbolTableRecord
100
AcDbLinetypeTableRecord
  2
DASHEDX2
 70
0
  3
Dashed (2x) ____  ____  ____  ____  ____  ___
 72
65
 73
2
 40
38.1000000000000014
 49
25.3999999999999986
 74
0
 49
-12.6999999999999993
 74
0
  0
LTYPE
  5
37
100
AcDbSymbolTableRecord
100
AcDbLinetypeTableRecord
  2
DASHDOT
 70
0
  3
Dash dot __ . __ . __ . __ . __ . __ . __ . __
 72
65
 73
4
 40
25.3999999999999986
 49
12.6999999999999993
 74
0
 49
-6.3499999999999996
 74
0
 49
0.0
 74
0
 49
-6.3499999999999996
 74
0
  0
LTYPE
  5
38
100
AcDbSymbolTableRecord
100
AcDbLinetypeTableRecord
  2
DASHDOT2
 70
0
  3
Dash dot (.5x) _._._._._._._._._._._._._._._.
 72
65
 73
4
 40
12.6999999999999993
 49
6.3499999999999996
 74
0
 49
-3.1749999999999998
 74
0
 49
0.0
 74
0
 49
-3.1749999999999998
 74
0
  0
LTYPE
  5
39
100
AcDbSymbolTableRecord
100
AcDbLinetypeTableRecord
  2
DASHDOTX2
 70
0
  3
Dash dot (2x) ____  .  ____  .  ____  .  ___
 72
65
 73
4
 40
50.7999999999999972
 49
25.3999999999999986
 74
0
 49
-12.6999999999999993
 74
0
 49
0.0
 74
0
 49
-12.6999999999999993
 74
0
  0
LTYPE
  5
3A
100
AcDbSymbolTableRecord
100
AcDbLinetypeTableRecord
  2
DIVIDE
 70
0
  3
Divide ____ . . ____ . . ____ . . ____ . . ____
 72
65
 73
6
 40
31.75
 49
12.6999999999999993
 74
0
 49
-6.3499999999999996
 74
0
 49
0.0
 74
0
 49
-6.3499999999999996
 74
0
 49
0.0
 74
0
 49
-6.3499999999999996
 74
0
  0
LTYPE
  5
3B
100
AcDbSymbolTableRecord
100
AcDbLinetypeTableRecord
  2
DIVIDE2
 70
0
  3
Divide (.5x) __..__..__..__..__..__..__..__.._
 72
65
 73
6
 40
15.875
 49
6.3499999999999996
 74
0
 49
-3.1749999999999998
 74
0
 49
0.0
 74
0
 49
-3.1749999999999998
 74
0
 49
0.0
 74
0
 49
-3.1749999999999998
 74
0
  0
LTYPE
  5
3C
100
AcDbSymbolTableRecord
100
AcDbLinetypeTableRecord
  2
DIVIDEX2
 70
0
  3
Divide (2x) ________  .  .  ________  .  .  _
 72
65
 73
6
 40
63.5
 49
25.3999999999999986
 74
0
 49
-12.6999999999999993
 74
0
 49
0.0
 74
0
 49
-12.6999999999999993
 74
0
 49
0.0
 74
0
 49
-12.6999999999999993
 74
0
  0
LTYPE
  5
3D
100
AcDbSymbolTableRecord
100
AcDbLinetypeTableRecord
  2
CENTER
 70
0
  3
Center ____ _ ____ _ ____ _ ____ _ ____ _ ____
 72
65
 73
4
 40
50.7999999999999972
 49
31.75
 74
0
 49
-6.3499999999999996
 74
0
 49
6.3499999999999996
 74
0
 49
-6.3499999999999996
 74
0
  0
LTYPE
  5
3E
100
AcDbSymbolTableRecord
100
AcDbLinetypeTableRecord
  2
CENTER2
 70
0
  3
Center (.5x) ___ _ ___ _ ___ _ ___ _ ___ _ ___
 72
65
 73
4
 40
28.5749999999999993
 49
19.0500000000000007
 74
0
 49
-3.1749999999999998
 74
0
 49
3.1749999999999998
 74
0
 49
-3.1749999999999998
 74
0
  0
LTYPE
  5
3F
100
AcDbSymbolTableRecord
100
AcDbLinetypeTableRecord
  2
CENTERX2
 70
0
  3
Center (2x) ________  __  ________  __  _____
 72
65
 73
4
 40
101.5999999999999943
 49
63.5
 74
0
 49
-12.6999999999999993
 74
0
 49
12.6999999999999993
 74
0
 49
-12.6999999999999993
 74
0
  0
LTYPE
  5
40
100
AcDbSymbolTableRecord
100
AcDbLinetypeTableRecord
  2
BORDER
 70
0
  3
Border __ __ . __ __ . __ __ . __ __ . __ __ .
 72
65
 73
6
 40
44.4500000000000028
 49
12.6999999999999993
 74
0
 49
-6.3499999999999996
 74
0
 49
12.6999999999999993
 74
0
 49
-6.3499999999999996
 74
0
 49
0.0
 74
0
 49
-6.3499999999999996
 74
0
  0
LTYPE
  5
41
100
AcDbSymbolTableRecord
100
AcDbLinetypeTableRecord
  2
BORDER2
 70
0
  3
Border (.5x) __.__.__.__.__.__.__.__.__.__.__.
 72
65
 73
6
 40
22.2250000000000014
 49
6.3499999999999996
 74
0
 49
-3.1749999999999998
 74
0
 49
6.3499999999999996
 74
0
 49
-3.1749999999999998
 74
0
 49
0.0
 74
0
 49
-3.1749999999999998
 74
0
  0
LTYPE
  5
42
100
AcDbSymbolTableRecord
100
AcDbLinetypeTableRecord
  2
BORDERX2
 70
0
  3
Border (2x) ____  ____  .  ____  ____  .  ___
 72
65
 73
6
 40
88.9000000000000057
 49
25.3999999999999986
 74
0
 49
-12.6999999999999993
 74
0
 49
25.3999999999999986
 74
0
 49
-12.6999999999999993
 74
0
 49
0.0
 74
0
 49
-12.6999999999999993
 74
0
  0
ENDTAB
  0
TABLE
  2
LAYER
  5
2
100
AcDbSymbolTable
 70
1
  0
LAYER
  5
10
100
AcDbSymbolTableRecord
100
AcDbLayerTableRecord
  2
0
 70
0
 62
7
  6
CONTINUOUS
370
-3
390
F
  0
ENDTAB
  0
TABLE
  2
STYLE
  5
3
100
AcDbSymbolTable
 70
1
  0
STYLE
  5
11
100
AcDbSymbolTableRecord
100
AcDbTextStyleTableRecord
  2
Standard
 70
0
 40
0.0
 41
0.75
 50
0.0
 71
0
 42
2.5
  3
txt
  4

  0
ENDTAB
  0
TABLE
  2
VIEW
  5
6
100
AcDbSymbolTable
 70
0
  0
ENDTAB
  0
TABLE
  2
UCS
  5
7
100
AcDbSymbolTable
 70
0
  0
ENDTAB
  0
TABLE
  2
APPID
  5
9
100
AcDbSymbolTable
 70
1
  0
APPID
  5
12
100
AcDbSymbolTableRecord
100
AcDbRegAppTableRecord
  2
ACAD
 70
0
  0
ENDTAB
  0
TABLE
  2
DIMSTYLE
  5
A
100
AcDbSymbolTable
 70
1
100
AcDbDimStyleTable
 71
0
  0
DIMSTYLE
105
27
100
AcDbSymbolTableRecord
100
AcDbDimStyleTableRecord
  2
Standard
 41
3.302
 42
1.0
 43
3.75
 44
1.0
 70
0
 73
0
 74
0
 77
1
 78
8
140
3.5
141
2.5
143
0.03937007874016
147
1.524
171
3
172
1
271
2
272
2
274
3
278
44
283
0
284
8
340
11
  0
ENDTAB
  0
TABLE
  2
BLOCK_RECORD
  5
1
100
AcDbSymbolTable
 70
1
  0
BLOCK_RECORD
  5
1F
100
AcDbSymbolTableRecord
100
AcDbBlockTableRecord
  2
*Model_Space
340
22
  0
BLOCK_RECORD
  5
1B
100
AcDbSymbolTableRecord
100
AcDbBlockTableRecord
  2
*Paper_Space
340
1E
  0
BLOCK_RECORD
  5
23
100
AcDbSymbolTableRecord
100
AcDbBlockTableRecord
  2
*Paper_Space0
340
26
  0
ENDTAB
  0
ENDSEC
  0
SECTION
  2
BLOCKS
  0
BLOCK
  5
20
100
AcDbEntity
  8
0
100
AcDbBlockBegin
  2
*Model_Space
 70
0
 10
0.0
 20
0.0
 30
0.0
  3
*Model_Space
  1

  0
ENDBLK
  5
21
100
AcDbEntity
  8
0
100
AcDbBlockEnd
  0
BLOCK
  5
1C
100
AcDbEntity
 67
1
  8
0
100
AcDbBlockBegin
  2
*Paper_Space
 70
0
 10
0.0
 20
0.0
 30
0.0
  3
*Paper_Space
  1

  0
ENDBLK
  5
1D
100
AcDbEntity
 67
1
  8
0
100
AcDbBlockEnd
  0
BLOCK
  5
24
100
AcDbEntity
  8
0
100
AcDbBlockBegin
  2
*Paper_Space0
 70
0
 10
0.0
 20
0.0
 30
0.0
  3
*Paper_Space0
  1

  0
ENDBLK
  5
25
100
AcDbEntity
  8
0
100
AcDbBlockEnd
  0
ENDSEC
  0
SECTION
  2
ENTITIES
  0
ARC
  5
43
100
AcDbEntity
  8
0
 62
256
370
15
  6
CONTINUOUS
100
AcDbCircle
 10
516.7441772275963103
 20
-7974.3516021283485316
 30
0.0
 40
4.6482147241921448
100
AcDbArc
 50
110.1522935337000035
 51
189.2400852737999912
  0
ARC
  5
44
100
AcDbEntity
  8
0
 62
256
370
15
  6
CONTINUOUS
100
AcDbCircle
 10
513.1433011268500195
 20
-7974.9374024195785751
 30
0.0
 40
1.0000000000000979
100
AcDbArc
 50
189.2400852737000037
 51
197.5151414804000183
  0
LINE
  5
45
100
AcDbEntity
100
AcDbLine
  8
0
 62
256
370
15
  6
CONTINUOUS
 10
512.1896636765513904
 20
-7975.2383602461213741
 30
0.0
 11
513.8561770935525601
 21
-7980.5189991458564691
 31
0.0
  0
ARC
  5
46
100
AcDbEntity
  8
0
 62
256
370
15
  6
CONTINUOUS
100
AcDbCircle
 10
512.9025396432532489
 20
-7980.8199569724001776
 30
0.0
 40
1.000000000000046
100
AcDbArc
 50
290.1522935337999911
 51
17.5151414804000005
  0
LINE
  5
47
100
AcDbEntity
100
AcDbLine
  8
0
 62
256
370
15
  6
CONTINUOUS
 10
513.2470563006118027
 20
-7981.7587371771896869
 30
0.0
 11
508.0729993773973092
 21
-7983.6575296602668459
 31
0.0
  0
ARC
  5
48
100
AcDbEntity
  8
0
 62
256
370
15
  6
CONTINUOUS
100
AcDbCircle
 10
507.7284827201094686
 20
-7982.7187494555482772
 30
0.0
 40
1.000000000000163
100
AcDbArc
 50
212.4991067385000179
 51
290.1522935337999911
  0
SPLINE
  5
49
  8
0
 62
256
370
15
  6
CONTINUOUS
100
AcDbEntity
100
AcDbSpline
 70
8
 71
3
 72
9
 73
5
 74
0
 40
0.0
 40
0.0
 40
0.0
 40
0.0
 40
0.5
 40
1.0
 40
1.0
 40
1.0
 40
1.0
 10
506.8850828976820821
 20
-7983.2560359150429576
 30
0.0
 10
504.0649257759621378
 20
-7978.8291236534287236
 30
0.0
 10
498.8781482363598343
 20
-7969.8567577652547698
 30
0.0
 10
494.4775558630716432
 20
-7960.4758543878651835
 30
0.0
 10
492.4921931007816625
 20
-7955.7333516467424488
 30
0.0
  0
ARC
  5
4A
100
AcDbEntity
  8
0
 62
256
370
15
  6
CONTINUOUS
100
AcDbCircle
 10
491.5697610537343962
 20
-7956.1195110939270307
 30
0.0
 40
0.9999999999998069
100
AcDbArc
 50
22.7157390404999937
 51
75.124989192000001
  0
LINE
  5
4B
100
AcDbEntity
100
AcDbLine
  8
0
 62
256
370
15
  6
CONTINUOUS
 10
491.8264723437116572
 20
-7955.1530229596974095
 30
0.0
 11
490.5059463551429531
 21
-7954.8022748047524146
 31
0.0
  0
ARC
  5
4C
100
AcDbEntity
  8
0
 62
256
370
15
  6
CONTINUOUS
100
AcDbCircle
 10
490.2492350652364053
 20
-7955.7687629390529764
 30
0.0
 40
1.000000000000395
100
AcDbArc
 50
75.124989192000001
 51
173.5198520639000037
  0
ARC
  5
4D
100
AcDbEntity
  8
0
 62
256
370
15
  6
CONTINUOUS
100
AcDbCircle
 10
451.8409509989646722
 20
-7951.4061718032080535
 30
0.0
 40
37.655251730301913
100
AcDbArc
 50
271.4779098358999931
 51
353.5198520639000321
  0
ARC
  5
4E
100
AcDbEntity
  8
0
 62
256
370
15
  6
CONTINUOUS
100
AcDbCircle
 10
523.3727711874574879
 20
-7993.6679396698018536
 30
0.0
 40
1.000000000000145
100
AcDbArc
 50
269.9955194836999794
 51
359.9955194836999794
  0
LINE
  5
4F
100
AcDbEntity
100
AcDbLine
  8
0
 62
256
370
15
  6
CONTINUOUS
 10
524.3727711844355781
 20
-7993.6680178695187351
 30
0.0
 11
524.373188220034649
 21
-7988.3350649186613737
 31
0.0
  0
ARC
  5
50
100
AcDbEntity
  8
0
 62
256
370
15
  6
CONTINUOUS
100
AcDbCircle
 10
523.3731882231267036
 20
-7988.3349867188744611
 30
0.0
 40
1.0000000000000711
100
AcDbArc
 50
359.9955194836999794
 51
20.1522935338000018
  0
LINE
  5
51
100
AcDbEntity
100
AcDbLine
  8
0
 62
256
370
15
  6
CONTINUOUS
 10
524.311968427845045
 20
-7987.9904700615861657
 30
0.0
 11
517.7457069134122776
 21
-7970.0979351212899928
 31
0.0
  0
ARC
  5
52
100
AcDbEntity
  8
0
 62
256
370
15
  6
CONTINUOUS
100
AcDbCircle
 10
516.8069267086231093
 20
-7970.4424517786492288
 30
0.0
 40
1.000000000000306
100
AcDbArc
 50
20.1522935338000018
 51
110.1522935337000035
  0
LINE
  5
53
100
AcDbEntity
100
AcDbLine
  8
0
 62
256
370
15
  6
CONTINUOUS
 10
516.4624100513352687
 20
-7969.5036715739306601
 30
0.0
 11
515.1427898281569924
 21
-7969.9879501578889176
 31
0.0
  0
ARC
  5
54
100
AcDbEntity
  8
0
 62
256
370
15
  6
CONTINUOUS
100
AcDbCircle
 10
437.8379291761034438
 20
-7990.0485645972630664
 30
0.0
 40
1.000000000000586
100
AcDbArc
 50
91.4779098358000056
 51
179.9955194837000079
  0
LINE
  5
55
100
AcDbEntity
100
AcDbLine
  8
0
 62
256
370
15
  6
CONTINUOUS
 10
436.8379291791960668
 20
-7990.0484863974752443
 30
0.0
 11
436.8376465761928671
 21
-7993.6623456400802752
 31
0.0
  0
ARC
  5
56
100
AcDbEntity
  8
0
 62
256
370
15
  6
CONTINUOUS
100
AcDbCircle
 10
437.8376465731709573
 20
-7993.6624238397971567
 30
0.0
 40
1.0000000000003459
100
AcDbArc
 50
179.9955194837000079
 51
269.9955194836999794
  0
LINE
  5
57
100
AcDbEntity
100
AcDbLine
  8
0
 62
256
370
-1
  6
ByLayer
 10
452.8121376437348999
 20
-7989.0488972541288604
 30
0.0
 11
437.8121376437121057
 21
-7989.0488972541643307
 31
0.0
  0
LINE
  5
58
100
AcDbEntity
100
AcDbLine
  8
0
 62
256
370
-1
  6
ByLayer
 10
488.3735475691973988
 20
-7974.6653434403433494
 30
0.0
 11
488.3735475691973988
 21
-7994.6650463424211921
 31
0.0
  0
LINE
  5
59
100
AcDbEntity
100
AcDbLine
  8
0
 62
256
370
15
  6
CONTINUOUS
 10
437.789147220890527
 20
-7994.6612470537993431
 30
0.0
 11
488.3735475691973988
 21
-7994.665202741948633
 31
0.0
  0
ARC
  5
5A
100
AcDbEntity
  8
0
 62
256
370
15
  6
CONTINUOUS
100
AcDbCircle
 10
405.2558227724036897
 20
-7975.6483978716514684
 30
0.0
 40
4.6482147241921448
100
AcDbArc
 50
290.1522935337000035
 51
9.2400852738000001
  0
ARC
  5
5B
100
AcDbEntity
  8
0
 62
256
370
15
  6
CONTINUOUS
100
AcDbCircle
 10
408.8566988731499805
 20
-7975.0625975804214249
 30
0.0
 40
1.0000000000000979
100
AcDbArc
 50
9.2400852737000019
 51
17.5151414804000147
  0
LINE
  5
5C
100
AcDbEntity
100
AcDbLine
  8
0
 62
256
370
15
  6
CONTINUOUS
 10
409.8103363234486096
 20
-7974.7616397538786259
 30
0.0
 11
408.1438229064474399
 21
-7969.4810008541426214
 31
0.0
  0
ARC
  5
5D
100
AcDbEntity
  8
0
 62
256
370
15
  6
CONTINUOUS
100
AcDbCircle
 10
409.0974603567467511
 20
-7969.1800430275998224
 30
0.0
 40
1.000000000000046
100
AcDbArc
 50
110.1522935337999769
 51
197.5151414804000183
  0
LINE
  5
5E
100
AcDbEntity
100
AcDbLine
  8
0
 62
256
370
15
  6
CONTINUOUS
 10
408.7529436993881973
 20
-7968.2412628228103131
 30
0.0
 11
413.9270006226026908
 21
-7966.3424703397331541
 31
0.0
  0
ARC
  5
5F
100
AcDbEntity
  8
0
 62
256
370
15
  6
CONTINUOUS
100
AcDbCircle
 10
414.2715172798905314
 20
-7967.2812505444517228
 30
0.0
 40
1.000000000000163
100
AcDbArc
 50
32.4991067385000036
 51
110.1522935337999769
  0
SPLINE
  5
60
  8
0
 62
256
370
15
  6
CONTINUOUS
100
AcDbEntity
100
AcDbSpline
 70
8
 71
3
 72
9
 73
5
 74
0
 40
0.0
 40
0.0
 40
0.0
 40
0.0
 40
0.5
 40
1.0
 40
1.0
 40
1.0
 40
1.0
 10
415.1149171023179179
 20
-7966.7439640849570424
 30
0.0
 10
417.9350742240378622
 20
-7971.1708763465712764
 30
0.0
 10
423.1218517636401657
 20
-7980.1432422347452302
 30
0.0
 10
427.5224441369283568
 20
-7989.5241456121348165
 30
0.0
 10
429.5078068992183375
 20
-7994.2666483532575512
 30
0.0
  0
ARC
  5
61
100
AcDbEntity
  8
0
 62
256
370
15
  6
CONTINUOUS
100
AcDbCircle
 10
430.4302389462656038
 20
-7993.8804889060729693
 30
0.0
 40
0.9999999999998069
100
AcDbArc
 50
202.715739040499983
 51
255.1249891920000152
  0
LINE
  5
62
100
AcDbEntity
100
AcDbLine
  8
0
 62
256
370
15
  6
CONTINUOUS
 10
430.1735276562883428
 20
-7994.8469770403025905
 30
0.0
 11
431.4940536448570469
 21
-7995.1977251952475854
 31
0.0
  0
ARC
  5
63
100
AcDbEntity
  8
0
 62
256
370
15
  6
CONTINUOUS
100
AcDbCircle
 10
431.7507649347635947
 20
-7994.2312370609470236
 30
0.0
 40
1.000000000000395
100
AcDbArc
 50
255.1249891920000152
 51
353.5198520639000321
  0
ARC
  5
64
100
AcDbEntity
  8
0
 62
256
370
15
  6
CONTINUOUS
100
AcDbCircle
 10
470.1590490010353278
 20
-7998.5938281967919465
 30
0.0
 40
37.655251730301913
100
AcDbArc
 50
91.4779098359000074
 51
173.5198520639000606
  0
ARC
  5
65
100
AcDbEntity
  8
0
 62
256
370
15
  6
CONTINUOUS
100
AcDbCircle
 10
398.6272288125425121
 20
-7956.3320603301981464
 30
0.0
 40
1.000000000000145
100
AcDbArc
 50
89.9955194836999937
 51
179.9955194836999794
  0
LINE
  5
66
100
AcDbEntity
100
AcDbLine
  8
0
 62
256
370
15
  6
CONTINUOUS
 10
397.6272288155644219
 20
-7956.3319821304812649
 30
0.0
 11
397.626811779965351
 21
-7961.6649350813386263
 31
0.0
  0
ARC
  5
67
100
AcDbEntity
  8
0
 62
256
370
15
  6
CONTINUOUS
100
AcDbCircle
 10
398.6268117768732964
 20
-7961.6650132811255389
 30
0.0
 40
1.0000000000000711
100
AcDbArc
 50
179.9955194836999794
 51
200.1522935337999911
  0
LINE
  5
68
100
AcDbEntity
100
AcDbLine
  8
0
 62
256
370
15
  6
CONTINUOUS
 10
397.688031572154955
 20
-7962.0095299384138343
 30
0.0
 11
404.2542930865877224
 21
-7979.9020648787100072
 31
0.0
  0
ARC
  5
69
100
AcDbEntity
  8
0
 62
256
370
15
  6
CONTINUOUS
100
AcDbCircle
 10
405.1930732913768907
 20
-7979.5575482213507712
 30
0.0
 40
1.000000000000306
100
AcDbArc
 50
200.1522935337999911
 51
290.1522935337000035
  0
LINE
  5
6A
100
AcDbEntity
100
AcDbLine
  8
0
 62
256
370
15
  6
CONTINUOUS
 10
405.5375899486647313
 20
-7980.4963284260693399
 30
0.0
 11
406.8572101718430076
 21
-7980.0120498421110824
 31
0.0
  0
ARC
  5
6B
100
AcDbEntity
  8
0
 62
256
370
15
  6
CONTINUOUS
100
AcDbCircle
 10
484.1620708238965562
 20
-7959.9514354027369336
 30
0.0
 40
1.000000000000586
100
AcDbArc
 50
271.4779098358000056
 51
359.9955194836999794
  0
LINE
  5
6C
100
AcDbEntity
100
AcDbLine
  8
0
 62
256
370
15
  6
CONTINUOUS
 10
485.1620708208039332
 20
-7959.9515136025247557
 30
0.0
 11
485.1623534238071329
 21
-7956.3376543599197248
 31
0.0
  0
ARC
  5
6D
100
AcDbEntity
  8
0
 62
256
370
15
  6
CONTINUOUS
100
AcDbCircle
 10
484.1623534268290427
 20
-7956.3375761602028433
 30
0.0
 40
1.0000000000003459
100
AcDbArc
 50
359.9955194836999794
 51
89.9955194836999937
  0
LINE
  5
6E
100
AcDbEntity
100
AcDbLine
  8
0
 62
256
370
-1
  6
ByLayer
 10
469.1878623562651001
 20
-7960.9511027458711396
 30
0.0
 11
484.1878623562878943
 21
-7960.9511027458356693
 31
0.0
  0
LINE
  5
6F
100
AcDbEntity
100
AcDbLine
  8
0
 62
256
370
-1
  6
ByLayer
 10
433.6264524308026012
 20
-7975.3346565596566506
 30
0.0
 11
433.6264524308026012
 21
-7955.3349536575788079
 31
0.0
  0
LINE
  5
70
100
AcDbEntity
100
AcDbLine
  8
0
 62
256
370
15
  6
CONTINUOUS
 10
484.210852779109473
 20
-7955.3387529462006569
 30
0.0
 11
433.6264524308026012
 21
-7955.334797258051367
 31
0.0
  0
LINE
  5
71
100
AcDbEntity
100
AcDbLine
  8
0
 62
256
370
15
  6
CONTINUOUS
 10
415.0
 20
-7930.0
 30
0.0
 11
415.0
 21
-7925.0
 31
0.0
  0
LINE
  5
72
100
AcDbEntity
100
AcDbLine
  8
0
 62
256
370
15
  6
CONTINUOUS
 10
565.0
 20
-7925.0
 30
0.0
 11
565.0
 21
-7930.0
 31
0.0
  0
LINE
  5
73
100
AcDbEntity
100
AcDbLine
  8
0
 62
256
370
15
  6
CONTINUOUS
 10
395.0
 20
-7950.0
 30
0.0
 11
585.0
 21
-7950.0
 31
0.0
  0
ARC
  5
74
100
AcDbEntity
  8
0
 62
256
370
15
  6
CONTINUOUS
100
AcDbCircle
 10
420.625
 20
-7950.0
 30
0.0
 40
25.6250000000000284
100
AcDbArc
 50
102.6803834918000007
 51
180.0
  0
ARC
  5
75
100
AcDbEntity
  8
0
 62
256
370
15
  6
CONTINUOUS
100
AcDbCircle
 10
559.375
 20
-7950.0
 30
0.0
 40
25.6250000000000284
100
AcDbArc
 50
0.0
 51
77.3196165081999993
  0
LINE
  5
76
100
AcDbEntity
100
AcDbLine
  8
0
 62
256
370
15
  6
CONTINUOUS
 10
565.0
 20
-7930.0
 30
0.0
 11
560.3000000000000682
 21
-7930.0
 31
0.0
  0
LINE
  5
77
100
AcDbEntity
100
AcDbLine
  8
0
 62
256
370
-1
  6
ByLayer
 10
560.3000000000000682
 20
-7930.0
 30
0.0
 11
560.3000000000000682
 21
-7923.055216624017703
 31
0.0
  0
ARC
  5
78
100
AcDbEntity
  8
0
 62
256
370
15
  6
CONTINUOUS
100
AcDbCircle
 10
490.0
 20
-7757.759441316399716
 30
0.0
 40
179.6240054517953979
100
AcDbArc
 50
246.9600366264465379
 51
293.0399633735534621
  0
LINE
  5
79
100
AcDbEntity
100
AcDbLine
  8
0
 62
256
370
15
  6
CONTINUOUS
 10
419.6999999999999886
 20
-7930.0
 30
0.0
 11
415.0
 21
-7930.0
 31
0.0
  0
LINE
  5
7A
100
AcDbEntity
100
AcDbLine
  8
0
 62
256
370
-1
  6
ByLayer
 10
419.6999999999999886
 20
-7923.055216624017703
 30
0.0
 11
419.6999999999999886
 21
-7930.0
 31
0.0
  0
LINE
  5
7B
100
AcDbEntity
100
AcDbLine
  8
0
 62
256
370
-1
  6
ByLayer
 10
428.9264524280507658
 20
-7975.3346565596566506
 30
0.0
 11
433.6264524308026012
 21
-7975.3346565596566506
 31
0.0
  0
LINE
  5
7C
100
AcDbEntity
100
AcDbLine
  8
0
 62
256
370
15
  6
CONTINUOUS
 10
428.928016440968463
 20
-7955.3344298414913283
 30
0.0
 11
398.6273070123299931
 21
-7955.3320603332904284
 31
0.0
  0
LINE
  5
7D
100
AcDbEntity
100
AcDbLine
  8
0
 62
256
370
-1
  6
ByLayer
 10
428.928016440968463
 20
-7955.3344298414913283
 30
0.0
 11
428.9264524280507658
 21
-7975.3346565596566506
 31
0.0
  0
LINE
  5
7E
100
AcDbEntity
100
AcDbLine
  8
0
 62
256
370
-1
  6
ByLayer
 10
493.0735475719492342
 20
-7974.6653434403433494
 30
0.0
 11
488.3735475691973988
 21
-7974.6653434403433494
 31
0.0
  0
LINE
  5
7F
100
AcDbEntity
100
AcDbLine
  8
0
 62
256
370
15
  6
CONTINUOUS
 10
493.071983559031537
 20
-7994.6655701585086717
 30
0.0
 11
523.3726929876700069
 21
-7994.6679396667095716
 31
0.0
  0
LINE
  5
80
100
AcDbEntity
100
AcDbLine
  8
0
 62
256
370
-1
  6
ByLayer
 10
493.071983559031537
 20
-7994.6655701585086717
 30
0.0
 11
493.0735475719492342
 21
-7974.6653434403433494
 31
0.0
  0
ENDSEC
  0
SECTION
  2
OBJECTS
  0
DICTIONARY
  5
C
100
AcDbDictionary
280
0
281
1
  3
ACAD_GROUP
350
D
  3
ACAD_LAYOUT
350
1A
  3
ACAD_MLINESTYLE
350
17
  3
ACAD_PLOTSETTINGS
350
19
  3
ACAD_PLOTSTYLENAME
350
E
  3
AcDbVariableDictionary
350
81
  0
DICTIONARY
  5
D
100
AcDbDictionary
280
0
281
1
  0
ACDBDICTIONARYWDFLT
  5
E
100
AcDbDictionary
281
1
  3
Normal
350
F
100
AcDbDictionaryWithDefault
340
F
  0
ACDBPLACEHOLDER
  5
F
  0
DICTIONARY
  5
17
100
AcDbDictionary
280
0
281
1
  3
Standard
350
18
  0
MLINESTYLE
  5
18
100
AcDbMlineStyle
  2
STANDARD
 70
0
  3

 62
256
 51
90.0
 52
90.0
 71
2
 49
0.5
 62
256
  6
BYLAYER
 49
-0.5
 62
256
  6
BYLAYER
  0
DICTIONARY
  5
19
100
AcDbDictionary
280
0
281
1
  0
DICTIONARY
  5
1A
100
AcDbDictionary
281
1
  3
Layout1
350
1E
  3
Layout2
350
26
  3
Model
350
22
  0
LAYOUT
  5
1E
100
AcDbPlotSettings
  1

  2
C:\Program Files\AutoCAD 2002\plotters\DWF ePlot (optimized for plotting).pc3
  4

  6

 40
0.0
 41
0.0
 42
0.0
 43
0.0
 44
0.0
 45
0.0
 46
0.0
 47
0.0
 48
0.0
 49
0.0
140
0.0
141
0.0
142
1.0
143
1.0
 70
688
 72
0
 73
0
 74
5
  7

 75
16
147
1.0
148
0.0
149
0.0
100
AcDbLayout
  1
Layout1
 70
1
 71
1
 10
0.0
 20
0.0
 11
420.0
 21
297.0
 12
0.0
 22
0.0
 32
0.0
 14
100000000000000000000.0
 24
100000000000000000000.0
 34
100000000000000000000.0
 15
-100000000000000000000.0
 25
-100000000000000000000.0
 35
-100000000000000000000.0
146
0.0
 13
0.0
 23
0.0
 33
0.0
 16
1.0
 26
0.0
 36
0.0
 17
0.0
 27
1.0
 37
0.0
 76
0
330
1B
  0
LAYOUT
  5
22
100
AcDbPlotSettings
  1

  2
C:\Program Files\AutoCAD 2002\plotters\DWF ePlot (optimized for plotting).pc3
  4

  6

 40
0.0
 41
0.0
 42
0.0
 43
0.0
 44
0.0
 45
0.0
 46
0.0
 47
0.0
 48
0.0
 49
0.0
140
0.0
141
0.0
142
1.0
143
1.0
 70
1712
 72
0
 73
0
 74
0
  7

 75
0
147
1.0
148
0.0
149
0.0
100
AcDbLayout
  1
Model
 70
1
 71
0
 10
0.0
 20
0.0
 11
12.0
 21
9.0
 12
0.0
 22
0.0
 32
0.0
 14
0.0
 24
0.0
 34
0.0
 15
0.0
 25
0.0
 35
0.0
146
0.0
 13
0.0
 23
0.0
 33
0.0
 16
1.0
 26
0.0
 36
0.0
 17
0.0
 27
1.0
 37
0.0
 76
0
330
1F
  0
LAYOUT
  5
26
100
AcDbPlotSettings
  1

  2
C:\Program Files\AutoCAD 2002\plotters\DWF ePlot (optimized for plotting).pc3
  4

  6

 40
0.0
 41
0.0
 42
0.0
 43
0.0
 44
0.0
 45
0.0
 46
0.0
 47
0.0
 48
0.0
 49
0.0
140
0.0
141
0.0
142
1.0
143
1.0
 70
688
 72
0
 73
0
 74
5
  7

 75
16
147
1.0
148
0.0
149
0.0
100
AcDbLayout
  1
Layout2
 70
1
 71
2
 10
0.0
 20
0.0
 11
12.0
 21
9.0
 12
0.0
 22
0.0
 32
0.0
 14
0.0
 24
0.0
 34
0.0
 15
0.0
 25
0.0
 35
0.0
146
0.0
 13
0.0
 23
0.0
 33
0.0
 16
1.0
 26
0.0
 36
0.0
 17
0.0
 27
1.0
 37
0.0
 76
0
330
23
  0
DICTIONARY
  5
81
100
AcDbDictionary
281
1
  3
DIMASSOC
350
83
  3
HIDETEXT
350
82
  0
DICTIONARYVAR
  5
82
100
DictionaryVariables
280
0
  1
2
  0
DICTIONARYVAR
  5
83
100
DictionaryVariables
280
0
  1
1
  0
ENDSEC
  0
EOF
